ISO-10303-21;
HEADER;
FILE_DESCRIPTION (( 'STEP AP203' ),
    '1' );
FILE_NAME ('QM-CAHWP-20-450-650-M.STEP',
    '2021-01-05T02:35:24',
    ( '' ),
    ( '' ),
    'SwSTEP 2.0',
    'SolidWorks 2020',
    '' );
FILE_SCHEMA (( 'CONFIG_CONTROL_DESIGN' ));
ENDSEC;

DATA;
#1 = EDGE_LOOP ( 'NONE', ( #241, #83 ) ) ;
#2 = ORIENTED_EDGE ( 'NONE', *, *, #20, .F. ) ;
#3 = APPROVAL_ROLE ( '' ) ;
#4 = ORIENTED_EDGE ( 'NONE', *, *, #190, .F. ) ;
#5 = ORIENTED_EDGE ( 'NONE', *, *, #278, .T. ) ;
#6 = AXIS2_PLACEMENT_3D ( 'NONE', #173, #276, #147 ) ;
#7 = SECURITY_CLASSIFICATION_LEVEL ( 'unclassified' ) ;
#8 = CC_DESIGN_APPROVAL ( #170, ( #298 ) ) ;
#9 = ORIENTED_EDGE ( 'NONE', *, *, #129, .F. ) ;
#10 = PERSON_AND_ORGANIZATION_ROLE ( 'creator' ) ;
#11 = LINE ( 'NONE', #90, #99 ) ;
#12 = ADVANCED_FACE ( 'NONE', ( #159 ), #334, .F. ) ;
#13 = CARTESIAN_POINT ( 'NONE',  ( -3.000000000000000000, 0.000000000000000000, 0.000000000000000000 ) ) ;
#14 = VECTOR ( 'NONE', #94, 1000.000000000000000 ) ;
#15 = CC_DESIGN_PERSON_AND_ORGANIZATION_ASSIGNMENT ( #138, #219, ( #204 ) ) ;
#16 = CYLINDRICAL_SURFACE ( 'NONE', #206, 10.00000000000000000 ) ;
#17 = DIRECTION ( 'NONE',  ( 0.000000000000000000, 0.000000000000000000, 1.000000000000000000 ) ) ;
#18 = PERSON ( 'UNSPECIFIED', 'UNSPECIFIED', 'UNSPECIFIED', ('UNSPECIFIED'), ('UNSPECIFIED'), ('UNSPECIFIED') ) ;
#19 = CARTESIAN_POINT ( 'NONE',  ( 2.999999999999999112, 1.224646799147353256E-15, -10.00000000000000000 ) ) ;
#20 = EDGE_CURVE ( 'NONE', #220, #44, #105, .T. ) ;
#21 = CIRCLE ( 'NONE', #285, 10.00000000000000000 ) ;
#22 = APPROVAL_PERSON_ORGANIZATION ( #217, #170, #214 ) ;
#23 = CARTESIAN_POINT ( 'NONE',  ( -3.000000000000000000, 1.555301434917138433E-15, -12.69999999999999929 ) ) ;
#24 = AXIS2_PLACEMENT_3D ( 'NONE', #199, #169, #17 ) ;
#25 = EDGE_LOOP ( 'NONE', ( #9, #29 ) ) ;
#26 = DIRECTION ( 'NONE',  ( 0.000000000000000000, 0.000000000000000000, -1.000000000000000000 ) ) ;
#27 = EDGE_CURVE ( 'NONE', #253, #56, #107, .T. ) ;
#28 =( NAMED_UNIT ( * ) PLANE_ANGLE_UNIT ( ) SI_UNIT ( $, .RADIAN. ) );
#29 = ORIENTED_EDGE ( 'NONE', *, *, #211, .F. ) ;
#30 = ORGANIZATION ( 'UNSPECIFIED', 'UNSPECIFIED', '' ) ;
#31 = LOCAL_TIME ( 10, 35, 24.00000000000000000, #140 ) ;
#32 = LINE ( 'NONE', #80, #332 ) ;
#33 = ADVANCED_FACE ( 'NONE', ( #315, #41 ), #284, .F. ) ;
#34 = ORIENTED_EDGE ( 'NONE', *, *, #74, .F. ) ;
#35 = DIRECTION ( 'NONE',  ( -0.000000000000000000, 0.000000000000000000, 1.000000000000000000 ) ) ;
#36 = COORDINATED_UNIVERSAL_TIME_OFFSET ( 8, 0, .AHEAD. ) ;
#37 = ORIENTED_EDGE ( 'NONE', *, *, #20, .T. ) ;
#38 = APPROVAL ( #160, 'UNSPECIFIED' ) ;
#39 = EDGE_LOOP ( 'NONE', ( #212, #167, #216, #5 ) ) ;
#40 = CALENDAR_DATE ( 2021, 5, 1 ) ;
#41 = FACE_OUTER_BOUND ( 'NONE', #1, .T. ) ;
#42 = AXIS2_PLACEMENT_3D ( 'NONE', #79, #184, #114 ) ;
#43 = PERSON_AND_ORGANIZATION ( #18, #30 ) ;
#44 = VERTEX_POINT ( 'NONE', #193 ) ;
#45 = ADVANCED_FACE ( 'NONE', ( #293 ), #58, .F. ) ;
#46 = CARTESIAN_POINT ( 'NONE',  ( 0.5000000000000013323, 0.000000000000000000, 0.000000000000000000 ) ) ;
#47 = CARTESIAN_POINT ( 'NONE',  ( -3.000000000000000000, 0.000000000000000000, 0.000000000000000000 ) ) ;
#48 = AXIS2_PLACEMENT_3D ( 'NONE', #120, #279, #202 ) ;
#49 = DIRECTION ( 'NONE',  ( 0.000000000000000000, 0.000000000000000000, 1.000000000000000000 ) ) ;
#50 = DIRECTION ( 'NONE',  ( -1.000000000000000000, -0.000000000000000000, -0.000000000000000000 ) ) ;
#51 = AXIS2_PLACEMENT_3D ( 'NONE', #203, #144, #277 ) ;
#52 = AXIS2_PLACEMENT_3D ( 'NONE', #13, #72, #317 ) ;
#53 = PERSON_AND_ORGANIZATION ( #18, #30 ) ;
#54 = DIRECTION ( 'NONE',  ( 1.000000000000000000, 0.000000000000000000, 0.000000000000000000 ) ) ;
#55 = PERSON_AND_ORGANIZATION_ROLE ( 'design_owner' ) ;
#56 = VERTEX_POINT ( 'NONE', #242 ) ;
#57 = AXIS2_PLACEMENT_3D ( 'NONE', #93, #146, #247 ) ;
#58 = PLANE ( 'NONE',  #119 ) ;
#59 = DIRECTION ( 'NONE',  ( -1.000000000000000000, 0.000000000000000000, -0.000000000000000000 ) ) ;
#60 = ORIENTED_EDGE ( 'NONE', *, *, #168, .F. ) ;
#61 = ORIENTED_EDGE ( 'NONE', *, *, #301, .T. ) ;
#62 = DATE_AND_TIME ( #268, #259 ) ;
#63 = EDGE_LOOP ( 'NONE', ( #270, #328, #289, #2 ) ) ;
#64 = PERSON_AND_ORGANIZATION ( #18, #30 ) ;
#65 = ORIENTED_EDGE ( 'NONE', *, *, #245, .F. ) ;
#66 = AXIS2_PLACEMENT_3D ( 'NONE', #260, #127, #281 ) ;
#67 = VECTOR ( 'NONE', #164, 1000.000000000000000 ) ;
#68 = VERTEX_POINT ( 'NONE', #102 ) ;
#69 = CC_DESIGN_DATE_AND_TIME_ASSIGNMENT ( #109, #189, ( #298 ) ) ;
#70 = CARTESIAN_POINT ( 'NONE',  ( -1.614212418857619014, 0.000000000000000000, 10.00000000000000000 ) ) ;
#71 = CC_DESIGN_APPROVAL ( #38, ( #204 ) ) ;
#72 = DIRECTION ( 'NONE',  ( -1.000000000000000000, -0.000000000000000000, -0.000000000000000000 ) ) ;
#73 = LOCAL_TIME ( 10, 35, 24.00000000000000000, #36 ) ;
#74 = EDGE_CURVE ( 'NONE', #262, #265, #11, .T. ) ;
#75 =( NAMED_UNIT ( * ) SI_UNIT ( $, .STERADIAN. ) SOLID_ANGLE_UNIT ( ) );
#76 = CC_DESIGN_APPROVAL ( #121, ( #180 ) ) ;
#77 = PERSON_AND_ORGANIZATION ( #18, #30 ) ;
#78 = EDGE_LOOP ( 'NONE', ( #65, #61, #37, #295 ) ) ;
#79 = CARTESIAN_POINT ( 'NONE',  ( 2.999999999999999112, 0.000000000000000000, 0.000000000000000000 ) ) ;
#80 = CARTESIAN_POINT ( 'NONE',  ( -1.614212418857619014, 0.000000000000000000, 12.69999999999999929 ) ) ;
#81 = ORIENTED_EDGE ( 'NONE', *, *, #186, .T. ) ;
#82 = CIRCLE ( 'NONE', #66, 10.00000000000000000 ) ;
#83 = ORIENTED_EDGE ( 'NONE', *, *, #88, .T. ) ;
#84 = APPLICATION_CONTEXT ( 'configuration controlled 3d designs of mechanical parts and assemblies' ) ;
#85 = CALENDAR_DATE ( 2021, 5, 1 ) ;
#86 = CARTESIAN_POINT ( 'NONE',  ( -1.614212418857619014, 0.000000000000000000, 0.000000000000000000 ) ) ;
#87 = APPROVAL_ROLE ( '' ) ;
#88 = EDGE_CURVE ( 'NONE', #265, #68, #201, .T. ) ;
#89 = DIRECTION ( 'NONE',  ( 0.000000000000000000, 0.000000000000000000, -1.000000000000000000 ) ) ;
#90 = CARTESIAN_POINT ( 'NONE',  ( -1.614212418857619014, 1.555301434917138433E-15, -12.69999999999999929 ) ) ;
#91 = DIRECTION ( 'NONE',  ( 0.000000000000000000, 0.000000000000000000, 1.000000000000000000 ) ) ;
#92 = CALENDAR_DATE ( 2021, 5, 1 ) ;
#93 = CARTESIAN_POINT ( 'NONE',  ( 3.000000000000000000, 0.000000000000000000, 0.000000000000000000 ) ) ;
#94 = DIRECTION ( 'NONE',  ( -1.000000000000000000, -0.000000000000000000, -0.000000000000000000 ) ) ;
#95 = CARTESIAN_POINT ( 'NONE',  ( -1.614212418857619014, 1.224646799147353256E-15, -10.00000000000000000 ) ) ;
#96 = AXIS2_PLACEMENT_3D ( 'NONE', #46, #139, #134 ) ;
#97 = CC_DESIGN_SECURITY_CLASSIFICATION ( #298, ( #204 ) ) ;
#98 = MECHANICAL_CONTEXT ( 'NONE', #172, 'mechanical' ) ;
#99 = VECTOR ( 'NONE', #195, 1000.000000000000000 ) ;
#100 = CARTESIAN_POINT ( 'NONE',  ( -0.5000000000000006661, 0.000000000000000000, 0.000000000000000000 ) ) ;
#101 = EDGE_CURVE ( 'NONE', #228, #283, #250, .T. ) ;
#102 = CARTESIAN_POINT ( 'NONE',  ( -3.000000000000000000, 0.000000000000000000, 12.69999999999999929 ) ) ;
#103 =( LENGTH_UNIT ( ) NAMED_UNIT ( * ) SI_UNIT ( .MILLI., .METRE. ) );
#104 = ORIENTED_EDGE ( 'NONE', *, *, #196, .F. ) ;
#105 = LINE ( 'NONE', #291, #67 ) ;
#106 = APPROVAL_DATE_TIME ( #292, #38 ) ;
#107 = CIRCLE ( 'NONE', #96, 10.00000000000000000 ) ;
#108 = ORIENTED_EDGE ( 'NONE', *, *, #88, .F. ) ;
#109 = DATE_AND_TIME ( #85, #31 ) ;
#110 = CARTESIAN_POINT ( 'NONE',  ( -3.000000000000000000, 10.00000000000000000, 0.000000000000000000 ) ) ;
#111 = COORDINATED_UNIVERSAL_TIME_OFFSET ( 8, 0, .AHEAD. ) ;
#112 = CC_DESIGN_PERSON_AND_ORGANIZATION_ASSIGNMENT ( #135, #10, ( #180 ) ) ;
#113 = ORIENTED_EDGE ( 'NONE', *, *, #74, .T. ) ;
#114 = DIRECTION ( 'NONE',  ( 0.000000000000000000, 0.000000000000000000, 1.000000000000000000 ) ) ;
#115 = CIRCLE ( 'NONE', #51, 12.69999999999999929 ) ;
#116 = CARTESIAN_POINT ( 'NONE',  ( -1.614212418857619014, 0.000000000000000000, 0.000000000000000000 ) ) ;
#117 = CARTESIAN_POINT ( 'NONE',  ( 3.000000000000000000, 0.000000000000000000, 12.69999999999999929 ) ) ;
#118 = DIRECTION ( 'NONE',  ( 0.000000000000000000, 0.000000000000000000, 1.000000000000000000 ) ) ;
#119 = AXIS2_PLACEMENT_3D ( 'NONE', #263, #141, #35 ) ;
#120 = CARTESIAN_POINT ( 'NONE',  ( -1.614212418857619014, 0.000000000000000000, 0.000000000000000000 ) ) ;
#121 = APPROVAL ( #313, 'UNSPECIFIED' ) ;
#122 = MANIFOLD_SOLID_BREP ( 'Ðý×', #254 ) ;
#123 = CARTESIAN_POINT ( 'NONE',  ( -0.5000000000000006661, 1.224646799147353256E-15, -10.00000000000000000 ) ) ;
#124 = AXIS2_PLACEMENT_3D ( 'NONE', #275, #319, #91 ) ;
#125 = EDGE_LOOP ( 'NONE', ( #237, #166 ) ) ;
#126 = CARTESIAN_POINT ( 'NONE',  ( 3.000000000000000000, 1.555301434917138433E-15, -12.69999999999999929 ) ) ;
#127 = DIRECTION ( 'NONE',  ( -1.000000000000000000, -0.000000000000000000, -0.000000000000000000 ) ) ;
#128 = APPLICATION_PROTOCOL_DEFINITION ( 'international standard', 'config_control_design', 1994, #84 ) ;
#129 = EDGE_CURVE ( 'NONE', #136, #262, #115, .T. ) ;
#130 = AXIS2_PLACEMENT_3D ( 'NONE', #152, #330, #54 ) ;
#131 = ORIENTED_EDGE ( 'NONE', *, *, #211, .T. ) ;
#132 = CC_DESIGN_PERSON_AND_ORGANIZATION_ASSIGNMENT ( #53, #55, ( #181 ) ) ;
#133 = EDGE_LOOP ( 'NONE', ( #104, #4 ) ) ;
#134 = DIRECTION ( 'NONE',  ( 0.000000000000000000, 0.000000000000000000, 1.000000000000000000 ) ) ;
#135 = PERSON_AND_ORGANIZATION ( #18, #30 ) ;
#136 = VERTEX_POINT ( 'NONE', #117 ) ;
#137 = ORIENTED_EDGE ( 'NONE', *, *, #278, .F. ) ;
#138 = PERSON_AND_ORGANIZATION ( #18, #30 ) ;
#139 = DIRECTION ( 'NONE',  ( -1.000000000000000000, -0.000000000000000000, -0.000000000000000000 ) ) ;
#140 = COORDINATED_UNIVERSAL_TIME_OFFSET ( 8, 0, .AHEAD. ) ;
#141 = DIRECTION ( 'NONE',  ( -1.000000000000000000, 0.000000000000000000, -0.000000000000000000 ) ) ;
#142 = LINE ( 'NONE', #70, #226 ) ;
#143 = SHAPE_DEFINITION_REPRESENTATION ( #153, #154 ) ;
#144 = DIRECTION ( 'NONE',  ( -1.000000000000000000, -0.000000000000000000, -0.000000000000000000 ) ) ;
#145 = CIRCLE ( 'NONE', #280, 12.69999999999999929 ) ;
#146 = DIRECTION ( 'NONE',  ( -1.000000000000000000, -0.000000000000000000, -0.000000000000000000 ) ) ;
#147 = DIRECTION ( 'NONE',  ( 0.000000000000000000, 0.000000000000000000, 1.000000000000000000 ) ) ;
#148 = ADVANCED_FACE ( 'NONE', ( #300 ), #171, .F. ) ;
#149 = DIRECTION ( 'NONE',  ( -1.000000000000000000, -0.000000000000000000, -0.000000000000000000 ) ) ;
#150 = CIRCLE ( 'NONE', #124, 10.00000000000000000 ) ;
#151 = EDGE_LOOP ( 'NONE', ( #183, #113, #312, #235 ) ) ;
#152 = CARTESIAN_POINT ( 'NONE',  ( 0.000000000000000000, 0.000000000000000000, 0.000000000000000000 ) ) ;
#153 = PRODUCT_DEFINITION_SHAPE ( 'NONE', 'NONE',  #180 ) ;
#154 = ADVANCED_BREP_SHAPE_REPRESENTATION ( 'QM-CAHWP-20-450-650-M', ( #122, #130 ), #230 ) ;
#155 = LOCAL_TIME ( 10, 35, 24.00000000000000000, #271 ) ;
#156 = PLANE ( 'NONE',  #302 ) ;
#157 = AXIS2_PLACEMENT_3D ( 'NONE', #110, #218, #89 ) ;
#158 = ORIENTED_EDGE ( 'NONE', *, *, #101, .F. ) ;
#159 = FACE_OUTER_BOUND ( 'NONE', #162, .T. ) ;
#160 = APPROVAL_STATUS ( 'not_yet_approved' ) ;
#161 = EDGE_LOOP ( 'NONE', ( #137, #264 ) ) ;
#162 = EDGE_LOOP ( 'NONE', ( #158, #81, #288, #60 ) ) ;
#163 = PERSON_AND_ORGANIZATION ( #18, #30 ) ;
#164 = DIRECTION ( 'NONE',  ( -1.000000000000000000, -0.000000000000000000, -0.000000000000000000 ) ) ;
#165 = DATE_AND_TIME ( #266, #73 ) ;
#166 = ORIENTED_EDGE ( 'NONE', *, *, #301, .F. ) ;
#167 = ORIENTED_EDGE ( 'NONE', *, *, #198, .F. ) ;
#168 = EDGE_CURVE ( 'NONE', #283, #56, #142, .T. ) ;
#169 = DIRECTION ( 'NONE',  ( -1.000000000000000000, -0.000000000000000000, -0.000000000000000000 ) ) ;
#170 = APPROVAL ( #192, 'UNSPECIFIED' ) ;
#171 = CYLINDRICAL_SURFACE ( 'NONE', #48, 10.00000000000000000 ) ;
#172 = APPLICATION_CONTEXT ( 'configuration controlled 3d designs of mechanical parts and assemblies' ) ;
#173 = CARTESIAN_POINT ( 'NONE',  ( -1.614212418857619014, 0.000000000000000000, 0.000000000000000000 ) ) ;
#174 = CARTESIAN_POINT ( 'NONE',  ( 2.999999999999999112, 0.000000000000000000, 0.000000000000000000 ) ) ;
#175 = CARTESIAN_POINT ( 'NONE',  ( -1.614212418857619014, 0.000000000000000000, 0.000000000000000000 ) ) ;
#176 = CARTESIAN_POINT ( 'NONE',  ( -0.5000000000000006661, 0.000000000000000000, 0.000000000000000000 ) ) ;
#177 = CIRCLE ( 'NONE', #310, 10.00000000000000000 ) ;
#178 = ADVANCED_FACE ( 'NONE', ( #243 ), #223, .T. ) ;
#179 = APPLICATION_PROTOCOL_DEFINITION ( 'international standard', 'config_control_design', 1994, #172 ) ;
#180 = PRODUCT_DEFINITION ( 'UNKNOWN', '', #204, #246 ) ;
#181 = PRODUCT ( 'QM-CAHWP-20-450-650-M', 'QM-CAHWP-20-450-650-M', '', ( #98 ) ) ;
#182 = CARTESIAN_POINT ( 'NONE',  ( 2.999999999999999556, 12.69999999999999929, 0.000000000000000000 ) ) ;
#183 = ORIENTED_EDGE ( 'NONE', *, *, #129, .T. ) ;
#184 = DIRECTION ( 'NONE',  ( -1.000000000000000000, -0.000000000000000000, -0.000000000000000000 ) ) ;
#185 = DIRECTION ( 'NONE',  ( 0.000000000000000000, 0.000000000000000000, -1.000000000000000000 ) ) ;
#186 = EDGE_CURVE ( 'NONE', #228, #253, #323, .T. ) ;
#187 = AXIS2_PLACEMENT_3D ( 'NONE', #176, #233, #185 ) ;
#188 = ORIENTED_EDGE ( 'NONE', *, *, #101, .T. ) ;
#189 = DATE_TIME_ROLE ( 'classification_date' ) ;
#190 = EDGE_CURVE ( 'NONE', #309, #44, #294, .T. ) ;
#191 = DIRECTION ( 'NONE',  ( -1.000000000000000000, -0.000000000000000000, -0.000000000000000000 ) ) ;
#192 = APPROVAL_STATUS ( 'not_yet_approved' ) ;
#193 = CARTESIAN_POINT ( 'NONE',  ( -3.000000000000000000, 0.000000000000000000, 10.00000000000000000 ) ) ;
#194 = UNCERTAINTY_MEASURE_WITH_UNIT (LENGTH_MEASURE( 1.000000000000000082E-05 ), #103, 'distance_accuracy_value', 'NONE');
#195 = DIRECTION ( 'NONE',  ( -1.000000000000000000, -0.000000000000000000, -0.000000000000000000 ) ) ;
#196 = EDGE_CURVE ( 'NONE', #44, #309, #150, .T. ) ;
#197 = LINE ( 'NONE', #95, #14 ) ;
#198 = EDGE_CURVE ( 'NONE', #283, #228, #21, .T. ) ;
#199 = CARTESIAN_POINT ( 'NONE',  ( -1.614212418857619014, 0.000000000000000000, 0.000000000000000000 ) ) ;
#200 = FACE_OUTER_BOUND ( 'NONE', #267, .T. ) ;
#201 = CIRCLE ( 'NONE', #244, 12.69999999999999929 ) ;
#202 = DIRECTION ( 'NONE',  ( 0.000000000000000000, 0.000000000000000000, 1.000000000000000000 ) ) ;
#203 = CARTESIAN_POINT ( 'NONE',  ( 3.000000000000000000, 0.000000000000000000, 0.000000000000000000 ) ) ;
#204 = PRODUCT_DEFINITION_FORMATION_WITH_SPECIFIED_SOURCE ( 'ANY', '', #181, .NOT_KNOWN. ) ;
#205 = DIRECTION ( 'NONE',  ( -1.000000000000000000, -0.000000000000000000, -0.000000000000000000 ) ) ;
#206 = AXIS2_PLACEMENT_3D ( 'NONE', #116, #249, #118 ) ;
#207 = DIRECTION ( 'NONE',  ( -1.000000000000000000, -0.000000000000000000, -0.000000000000000000 ) ) ;
#208 = AXIS2_PLACEMENT_3D ( 'NONE', #175, #207, #305 ) ;
#209 = CC_DESIGN_PERSON_AND_ORGANIZATION_ASSIGNMENT ( #43, #311, ( #298 ) ) ;
#210 = DIRECTION ( 'NONE',  ( -1.000000000000000000, -0.000000000000000000, -0.000000000000000000 ) ) ;
#211 = EDGE_CURVE ( 'NONE', #262, #136, #274, .T. ) ;
#212 = ORIENTED_EDGE ( 'NONE', *, *, #186, .F. ) ;
#213 = PERSON_AND_ORGANIZATION_ROLE ( 'creator' ) ;
#214 = APPROVAL_ROLE ( '' ) ;
#215 = APPROVAL_PERSON_ORGANIZATION ( #64, #38, #3 ) ;
#216 = ORIENTED_EDGE ( 'NONE', *, *, #168, .T. ) ;
#217 = PERSON_AND_ORGANIZATION ( #18, #30 ) ;
#218 = DIRECTION ( 'NONE',  ( 1.000000000000000000, 0.000000000000000000, 0.000000000000000000 ) ) ;
#219 = PERSON_AND_ORGANIZATION_ROLE ( 'design_supplier' ) ;
#220 = VERTEX_POINT ( 'NONE', #251 ) ;
#221 = APPROVAL_PERSON_ORGANIZATION ( #77, #121, #87 ) ;
#222 = DIRECTION ( 'NONE',  ( -1.000000000000000000, -0.000000000000000000, -0.000000000000000000 ) ) ;
#223 = CYLINDRICAL_SURFACE ( 'NONE', #24, 12.69999999999999929 ) ;
#224 = AXIS2_PLACEMENT_3D ( 'NONE', #303, #329, #231 ) ;
#225 = CARTESIAN_POINT ( 'NONE',  ( -1.614212418857619014, 1.224646799147353256E-15, -10.00000000000000000 ) ) ;
#226 = VECTOR ( 'NONE', #149, 1000.000000000000000 ) ;
#227 = CARTESIAN_POINT ( 'NONE',  ( -3.000000000000000000, 1.224646799147353256E-15, -10.00000000000000000 ) ) ;
#228 = VERTEX_POINT ( 'NONE', #19 ) ;
#229 = DIRECTION ( 'NONE',  ( -0.000000000000000000, 0.000000000000000000, 1.000000000000000000 ) ) ;
#230 =( GEOMETRIC_REPRESENTATION_CONTEXT ( 3 ) GLOBAL_UNCERTAINTY_ASSIGNED_CONTEXT ( ( #194 ) ) GLOBAL_UNIT_ASSIGNED_CONTEXT ( ( #103, #28, #75 ) ) REPRESENTATION_CONTEXT ( 'NONE', 'WORKASPACE' ) );
#231 = DIRECTION ( 'NONE',  ( 0.000000000000000000, 0.000000000000000000, -1.000000000000000000 ) ) ;
#232 = CARTESIAN_POINT ( 'NONE',  ( -3.000000000000000000, 0.000000000000000000, 0.000000000000000000 ) ) ;
#233 = DIRECTION ( 'NONE',  ( 1.000000000000000000, 0.000000000000000000, 0.000000000000000000 ) ) ;
#234 = ORIENTED_EDGE ( 'NONE', *, *, #287, .T. ) ;
#235 = ORIENTED_EDGE ( 'NONE', *, *, #287, .F. ) ;
#236 = APPROVAL_DATE_TIME ( #165, #121 ) ;
#237 = ORIENTED_EDGE ( 'NONE', *, *, #306, .F. ) ;
#238 = EDGE_LOOP ( 'NONE', ( #307, #188 ) ) ;
#239 = COORDINATED_UNIVERSAL_TIME_OFFSET ( 8, 0, .AHEAD. ) ;
#240 = APPROVAL_DATE_TIME ( #314, #170 ) ;
#241 = ORIENTED_EDGE ( 'NONE', *, *, #256, .T. ) ;
#242 = CARTESIAN_POINT ( 'NONE',  ( 0.5000000000000013323, 0.000000000000000000, 10.00000000000000000 ) ) ;
#243 = FACE_OUTER_BOUND ( 'NONE', #151, .T. ) ;
#244 = AXIS2_PLACEMENT_3D ( 'NONE', #232, #210, #308 ) ;
#245 = EDGE_CURVE ( 'NONE', #272, #309, #197, .T. ) ;
#246 = DESIGN_CONTEXT ( 'detailed design', #84, 'design' ) ;
#247 = DIRECTION ( 'NONE',  ( 0.000000000000000000, 0.000000000000000000, 1.000000000000000000 ) ) ;
#248 = CC_DESIGN_PERSON_AND_ORGANIZATION_ASSIGNMENT ( #163, #213, ( #204 ) ) ;
#249 = DIRECTION ( 'NONE',  ( -1.000000000000000000, -0.000000000000000000, -0.000000000000000000 ) ) ;
#250 = CIRCLE ( 'NONE', #42, 10.00000000000000000 ) ;
#251 = CARTESIAN_POINT ( 'NONE',  ( -0.5000000000000006661, 0.000000000000000000, 10.00000000000000000 ) ) ;
#252 = ADVANCED_FACE ( 'NONE', ( #296 ), #16, .F. ) ;
#253 = VERTEX_POINT ( 'NONE', #273 ) ;
#254 = CLOSED_SHELL ( 'NONE', ( #178, #252, #12, #45, #148, #331, #33, #261, #318, #321 ) ) ;
#255 = DIRECTION ( 'NONE',  ( 1.000000000000000000, 0.000000000000000000, 0.000000000000000000 ) ) ;
#256 = EDGE_CURVE ( 'NONE', #68, #265, #145, .T. ) ;
#257 = FACE_BOUND ( 'NONE', #238, .T. ) ;
#258 = CARTESIAN_POINT ( 'NONE',  ( 2.999999999999999112, 0.000000000000000000, 10.00000000000000000 ) ) ;
#259 = LOCAL_TIME ( 10, 35, 24.00000000000000000, #111 ) ;
#260 = CARTESIAN_POINT ( 'NONE',  ( 0.5000000000000013323, 0.000000000000000000, 0.000000000000000000 ) ) ;
#261 = ADVANCED_FACE ( 'NONE', ( #200 ), #297, .T. ) ;
#262 = VERTEX_POINT ( 'NONE', #126 ) ;
#263 = CARTESIAN_POINT ( 'NONE',  ( 0.5000000000000006661, 10.00000000000000000, 0.000000000000000000 ) ) ;
#264 = ORIENTED_EDGE ( 'NONE', *, *, #27, .F. ) ;
#265 = VERTEX_POINT ( 'NONE', #23 ) ;
#266 = CALENDAR_DATE ( 2021, 5, 1 ) ;
#267 = EDGE_LOOP ( 'NONE', ( #34, #131, #234, #108 ) ) ;
#268 = CALENDAR_DATE ( 2021, 5, 1 ) ;
#269 = LOCAL_TIME ( 10, 35, 24.00000000000000000, #239 ) ;
#270 = ORIENTED_EDGE ( 'NONE', *, *, #306, .T. ) ;
#271 = COORDINATED_UNIVERSAL_TIME_OFFSET ( 8, 0, .AHEAD. ) ;
#272 = VERTEX_POINT ( 'NONE', #123 ) ;
#273 = CARTESIAN_POINT ( 'NONE',  ( 0.5000000000000013323, 1.224646799147353256E-15, -10.00000000000000000 ) ) ;
#274 = CIRCLE ( 'NONE', #57, 12.69999999999999929 ) ;
#275 = CARTESIAN_POINT ( 'NONE',  ( -3.000000000000000000, 0.000000000000000000, 0.000000000000000000 ) ) ;
#276 = DIRECTION ( 'NONE',  ( -1.000000000000000000, -0.000000000000000000, -0.000000000000000000 ) ) ;
#277 = DIRECTION ( 'NONE',  ( 0.000000000000000000, 0.000000000000000000, 1.000000000000000000 ) ) ;
#278 = EDGE_CURVE ( 'NONE', #56, #253, #82, .T. ) ;
#279 = DIRECTION ( 'NONE',  ( -1.000000000000000000, -0.000000000000000000, -0.000000000000000000 ) ) ;
#280 = AXIS2_PLACEMENT_3D ( 'NONE', #47, #222, #49 ) ;
#281 = DIRECTION ( 'NONE',  ( 0.000000000000000000, 0.000000000000000000, 1.000000000000000000 ) ) ;
#282 = FACE_OUTER_BOUND ( 'NONE', #78, .T. ) ;
#283 = VERTEX_POINT ( 'NONE', #258 ) ;
#284 = PLANE ( 'NONE',  #157 ) ;
#285 = AXIS2_PLACEMENT_3D ( 'NONE', #174, #50, #325 ) ;
#286 = PLANE ( 'NONE',  #224 ) ;
#287 = EDGE_CURVE ( 'NONE', #136, #68, #32, .T. ) ;
#288 = ORIENTED_EDGE ( 'NONE', *, *, #27, .T. ) ;
#289 = ORIENTED_EDGE ( 'NONE', *, *, #190, .T. ) ;
#290 = DATE_TIME_ROLE ( 'creation_date' ) ;
#291 = CARTESIAN_POINT ( 'NONE',  ( -1.614212418857619014, 0.000000000000000000, 10.00000000000000000 ) ) ;
#292 = DATE_AND_TIME ( #40, #269 ) ;
#293 = FACE_OUTER_BOUND ( 'NONE', #161, .T. ) ;
#294 = CIRCLE ( 'NONE', #52, 10.00000000000000000 ) ;
#295 = ORIENTED_EDGE ( 'NONE', *, *, #196, .T. ) ;
#296 = FACE_OUTER_BOUND ( 'NONE', #63, .T. ) ;
#297 = CYLINDRICAL_SURFACE ( 'NONE', #6, 12.69999999999999929 ) ;
#298 = SECURITY_CLASSIFICATION ( '', '', #7 ) ;
#299 = DIRECTION ( 'NONE',  ( -1.000000000000000000, -0.000000000000000000, -0.000000000000000000 ) ) ;
#300 = FACE_OUTER_BOUND ( 'NONE', #39, .T. ) ;
#301 = EDGE_CURVE ( 'NONE', #272, #220, #322, .T. ) ;
#302 = AXIS2_PLACEMENT_3D ( 'NONE', #182, #59, #229 ) ;
#303 = CARTESIAN_POINT ( 'NONE',  ( -0.5000000000000006661, 10.00000000000000000, 0.000000000000000000 ) ) ;
#304 = AXIS2_PLACEMENT_3D ( 'NONE', #86, #191, #316 ) ;
#305 = DIRECTION ( 'NONE',  ( 0.000000000000000000, 0.000000000000000000, 1.000000000000000000 ) ) ;
#306 = EDGE_CURVE ( 'NONE', #220, #272, #177, .T. ) ;
#307 = ORIENTED_EDGE ( 'NONE', *, *, #198, .T. ) ;
#308 = DIRECTION ( 'NONE',  ( 0.000000000000000000, 0.000000000000000000, 1.000000000000000000 ) ) ;
#309 = VERTEX_POINT ( 'NONE', #227 ) ;
#310 = AXIS2_PLACEMENT_3D ( 'NONE', #100, #255, #26 ) ;
#311 = PERSON_AND_ORGANIZATION_ROLE ( 'classification_officer' ) ;
#312 = ORIENTED_EDGE ( 'NONE', *, *, #256, .F. ) ;
#313 = APPROVAL_STATUS ( 'not_yet_approved' ) ;
#314 = DATE_AND_TIME ( #92, #155 ) ;
#315 = FACE_BOUND ( 'NONE', #133, .T. ) ;
#316 = DIRECTION ( 'NONE',  ( 0.000000000000000000, 0.000000000000000000, 1.000000000000000000 ) ) ;
#317 = DIRECTION ( 'NONE',  ( 0.000000000000000000, 0.000000000000000000, 1.000000000000000000 ) ) ;
#318 = ADVANCED_FACE ( 'NONE', ( #333, #257 ), #156, .F. ) ;
#319 = DIRECTION ( 'NONE',  ( -1.000000000000000000, -0.000000000000000000, -0.000000000000000000 ) ) ;
#320 = PRODUCT_RELATED_PRODUCT_CATEGORY ( 'detail', '', ( #181 ) ) ;
#321 = ADVANCED_FACE ( 'NONE', ( #335 ), #286, .F. ) ;
#322 = CIRCLE ( 'NONE', #187, 10.00000000000000000 ) ;
#323 = LINE ( 'NONE', #225, #326 ) ;
#324 = CC_DESIGN_DATE_AND_TIME_ASSIGNMENT ( #62, #290, ( #180 ) ) ;
#325 = DIRECTION ( 'NONE',  ( 0.000000000000000000, 0.000000000000000000, 1.000000000000000000 ) ) ;
#326 = VECTOR ( 'NONE', #299, 1000.000000000000000 ) ;
#327 = CYLINDRICAL_SURFACE ( 'NONE', #208, 10.00000000000000000 ) ;
#328 = ORIENTED_EDGE ( 'NONE', *, *, #245, .T. ) ;
#329 = DIRECTION ( 'NONE',  ( 1.000000000000000000, 0.000000000000000000, 0.000000000000000000 ) ) ;
#330 = DIRECTION ( 'NONE',  ( 0.000000000000000000, 0.000000000000000000, 1.000000000000000000 ) ) ;
#331 = ADVANCED_FACE ( 'NONE', ( #282 ), #327, .F. ) ;
#332 = VECTOR ( 'NONE', #205, 1000.000000000000000 ) ;
#333 = FACE_OUTER_BOUND ( 'NONE', #25, .T. ) ;
#334 = CYLINDRICAL_SURFACE ( 'NONE', #304, 10.00000000000000000 ) ;
#335 = FACE_OUTER_BOUND ( 'NONE', #125, .T. ) ;
ENDSEC;
END-ISO-10303-21;
